ISO-10303-21;
HEADER;
FILE_DESCRIPTION (( 'STEP AP203' ),
    '1' );
FILE_NAME ('N-SF1-BPBSC-25.4-420-680.STEP',
    '2021-01-05T02:15:06',
    ( '' ),
    ( '' ),
    'SwSTEP 2.0',
    'SolidWorks 2020',
    '' );
FILE_SCHEMA (( 'CONFIG_CONTROL_DESIGN' ));
ENDSEC;

DATA;
#1 = APPROVAL_ROLE ( '' ) ;
#2 = CARTESIAN_POINT ( 'NONE',  ( 12.69999999999999929, -12.69999999999999929, 12.69999999999999929 ) ) ;
#3 = VERTEX_POINT ( 'NONE', #294 ) ;
#4 = PRODUCT ( 'N-SF1-BPBSC-25.4-420-680', 'N-SF1-BPBSC-25.4-420-680', '', ( #80 ) ) ;
#5 = ORIENTED_EDGE ( 'NONE', *, *, #224, .T. ) ;
#6 = FACE_OUTER_BOUND ( 'NONE', #289, .T. ) ;
#7 = CC_DESIGN_DATE_AND_TIME_ASSIGNMENT ( #225, #69, ( #16 ) ) ;
#8 = LINE ( 'NONE', #278, #106 ) ;
#9 = LOCAL_TIME ( 10, 15, 6.000000000000000000, #267 ) ;
#10 = EDGE_CURVE ( 'NONE', #308, #3, #113, .T. ) ;
#11 = ORIENTED_EDGE ( 'NONE', *, *, #286, .F. ) ;
#12 = COORDINATED_UNIVERSAL_TIME_OFFSET ( 8, 0, .AHEAD. ) ;
#13 = EDGE_LOOP ( 'NONE', ( #208, #160, #213, #167 ) ) ;
#14 = VECTOR ( 'NONE', #63, 1000.000000000000114 ) ;
#15 = ORIENTED_EDGE ( 'NONE', *, *, #48, .F. ) ;
#16 = SECURITY_CLASSIFICATION ( '', '', #29 ) ;
#17 = DIRECTION ( 'NONE',  ( 0.000000000000000000, 0.000000000000000000, 1.000000000000000000 ) ) ;
#18 = EDGE_CURVE ( 'NONE', #264, #84, #296, .T. ) ;
#19 = ORIENTED_EDGE ( 'NONE', *, *, #41, .F. ) ;
#20 = EDGE_CURVE ( 'NONE', #84, #154, #47, .T. ) ;
#21 = VECTOR ( 'NONE', #291, 1000.000000000000000 ) ;
#22 = FACE_OUTER_BOUND ( 'NONE', #108, .T. ) ;
#23 = COORDINATED_UNIVERSAL_TIME_OFFSET ( 8, 0, .AHEAD. ) ;
#24 = CARTESIAN_POINT ( 'NONE',  ( 12.69999999999999929, 12.69999999999999929, 12.69999999999999929 ) ) ;
#25 = VECTOR ( 'NONE', #55, 1000.000000000000000 ) ;
#26 = DIRECTION ( 'NONE',  ( -0.000000000000000000, 1.000000000000000000, -0.000000000000000000 ) ) ;
#27 = DIRECTION ( 'NONE',  ( -0.000000000000000000, -0.000000000000000000, -1.000000000000000000 ) ) ;
#28 = CARTESIAN_POINT ( 'NONE',  ( -12.69999999999999574, -12.69999999999999396, -12.69999999999999929 ) ) ;
#29 = SECURITY_CLASSIFICATION_LEVEL ( 'unclassified' ) ;
#30 = DIRECTION ( 'NONE',  ( 0.000000000000000000, 1.000000000000000000, 0.000000000000000000 ) ) ;
#31 = ORIENTED_EDGE ( 'NONE', *, *, #174, .T. ) ;
#32 = DIRECTION ( 'NONE',  ( 0.7071067811865474617, 0.7071067811865474617, 0.000000000000000000 ) ) ;
#33 = DIRECTION ( 'NONE',  ( 1.000000000000000000, -2.220446049250312588E-16, 0.000000000000000000 ) ) ;
#34 = ADVANCED_FACE ( 'NONE', ( #193 ), #215, .F. ) ;
#35 = ORIENTED_EDGE ( 'NONE', *, *, #65, .F. ) ;
#36 = CLOSED_SHELL ( 'NONE', ( #87, #37, #34, #64, #305 ) ) ;
#37 = ADVANCED_FACE ( 'NONE', ( #22 ), #221, .F. ) ;
#38 = ORIENTED_EDGE ( 'NONE', *, *, #214, .F. ) ;
#39 = APPROVAL_ROLE ( '' ) ;
#40 = EDGE_LOOP ( 'NONE', ( #205, #38, #31, #5 ) ) ;
#41 = EDGE_CURVE ( 'NONE', #3, #137, #319, .T. ) ;
#42 = CARTESIAN_POINT ( 'NONE',  ( 12.69999999999999929, 12.69999999999999929, 12.69999999999999929 ) ) ;
#43 = VECTOR ( 'NONE', #243, 1000.000000000000114 ) ;
#44 = CARTESIAN_POINT ( 'NONE',  ( 12.69999999999999929, -12.69999999999999929, -12.69999999999999929 ) ) ;
#45 = PLANE ( 'NONE',  #166 ) ;
#46 = PERSON ( 'UNSPECIFIED', 'UNSPECIFIED', 'UNSPECIFIED', ('UNSPECIFIED'), ('UNSPECIFIED'), ('UNSPECIFIED') ) ;
#47 = LINE ( 'NONE', #246, #14 ) ;
#48 = EDGE_CURVE ( 'NONE', #56, #210, #142, .T. ) ;
#49 = PRODUCT_DEFINITION_FORMATION_WITH_SPECIFIED_SOURCE ( 'ANY', '', #4, .NOT_KNOWN. ) ;
#50 = APPROVAL_DATE_TIME ( #199, #228 ) ;
#51 = COORDINATED_UNIVERSAL_TIME_OFFSET ( 8, 0, .AHEAD. ) ;
#52 = CARTESIAN_POINT ( 'NONE',  ( -12.69999999999999751, -12.69999999999999929, 12.69999999999999929 ) ) ;
#53 = CARTESIAN_POINT ( 'NONE',  ( -12.69999999999999751, -12.69999999999999929, 12.69999999999999929 ) ) ;
#54 = CARTESIAN_POINT ( 'NONE',  ( 12.69999999999999574, 12.69999999999999574, -12.69999999999999929 ) ) ;
#55 = DIRECTION ( 'NONE',  ( 1.000000000000000000, 0.000000000000000000, 0.000000000000000000 ) ) ;
#56 = VERTEX_POINT ( 'NONE', #316 ) ;
#57 = DIRECTION ( 'NONE',  ( -0.000000000000000000, 0.000000000000000000, 1.000000000000000000 ) ) ;
#58 = LOCAL_TIME ( 10, 15, 6.000000000000000000, #12 ) ;
#59 = ORIENTED_EDGE ( 'NONE', *, *, #18, .T. ) ;
#60 = PERSON_AND_ORGANIZATION ( #46, #162 ) ;
#61 = EDGE_LOOP ( 'NONE', ( #263, #282, #59 ) ) ;
#62 = APPROVAL_STATUS ( 'not_yet_approved' ) ;
#63 = DIRECTION ( 'NONE',  ( -0.7071067811865474617, -0.7071067811865474617, 0.000000000000000000 ) ) ;
#64 = ADVANCED_FACE ( 'NONE', ( #292 ), #45, .T. ) ;
#65 = EDGE_CURVE ( 'NONE', #264, #137, #91, .T. ) ;
#66 = VECTOR ( 'NONE', #27, 1000.000000000000000 ) ;
#67 = VECTOR ( 'NONE', #285, 1000.000000000000000 ) ;
#68 = CARTESIAN_POINT ( 'NONE',  ( 12.69999999999999574, 12.69999999999999574, 12.69999999999999929 ) ) ;
#69 = DATE_TIME_ROLE ( 'classification_date' ) ;
#70 = CARTESIAN_POINT ( 'NONE',  ( -12.69999999999999574, -12.69999999999999396, 12.69999999999999929 ) ) ;
#71 = PERSON_AND_ORGANIZATION ( #46, #162 ) ;
#72 = CARTESIAN_POINT ( 'NONE',  ( 12.69999999999999574, 12.69999999999999574, 12.69999999999999929 ) ) ;
#73 = AXIS2_PLACEMENT_3D ( 'NONE', #159, #57, #235 ) ;
#74 = LINE ( 'NONE', #204, #211 ) ;
#75 = EDGE_CURVE ( 'NONE', #137, #308, #145, .T. ) ;
#76 = DIRECTION ( 'NONE',  ( -0.000000000000000000, -0.000000000000000000, -1.000000000000000000 ) ) ;
#77 = PRODUCT_DEFINITION ( 'UNKNOWN', '', #49, #281 ) ;
#78 = UNCERTAINTY_MEASURE_WITH_UNIT (LENGTH_MEASURE( 1.000000000000000082E-05 ), #209, 'distance_accuracy_value', 'NONE');
#79 = EDGE_LOOP ( 'NONE', ( #191, #186, #134, #223 ) ) ;
#80 = MECHANICAL_CONTEXT ( 'NONE', #290, 'mechanical' ) ;
#81 = LINE ( 'NONE', #104, #67 ) ;
#82 = ORIENTED_EDGE ( 'NONE', *, *, #314, .T. ) ;
#83 = DATE_AND_TIME ( #131, #58 ) ;
#84 = VERTEX_POINT ( 'NONE', #42 ) ;
#85 = FACE_OUTER_BOUND ( 'NONE', #61, .T. ) ;
#86 = ORIENTED_EDGE ( 'NONE', *, *, #139, .T. ) ;
#87 = ADVANCED_FACE ( 'NONE', ( #117 ), #219, .F. ) ;
#88 = CC_DESIGN_PERSON_AND_ORGANIZATION_ASSIGNMENT ( #125, #94, ( #16 ) ) ;
#89 = DIRECTION ( 'NONE',  ( 0.000000000000000000, 0.000000000000000000, -1.000000000000000000 ) ) ;
#90 = DIRECTION ( 'NONE',  ( 0.000000000000000000, 0.000000000000000000, 1.000000000000000000 ) ) ;
#91 = LINE ( 'NONE', #192, #66 ) ;
#92 = DIRECTION ( 'NONE',  ( -0.7071067811865475727, 0.7071067811865475727, 0.000000000000000000 ) ) ;
#93 = CC_DESIGN_PERSON_AND_ORGANIZATION_ASSIGNMENT ( #241, #102, ( #77 ) ) ;
#94 = PERSON_AND_ORGANIZATION_ROLE ( 'classification_officer' ) ;
#95 = CALENDAR_DATE ( 2021, 5, 1 ) ;
#96 = CARTESIAN_POINT ( 'NONE',  ( 12.69999999999999574, 12.69999999999999574, 12.69999999999999929 ) ) ;
#97 = MANIFOLD_SOLID_BREP ( '¾µÏ', #36 ) ;
#98 = DIRECTION ( 'NONE',  ( -0.7071067811865475727, -0.7071067811865475727, 0.000000000000000000 ) ) ;
#99 = FACE_OUTER_BOUND ( 'NONE', #245, .T. ) ;
#100 = PLANE ( 'NONE',  #201 ) ;
#101 = CC_DESIGN_APPROVAL ( #194, ( #77 ) ) ;
#102 = PERSON_AND_ORGANIZATION_ROLE ( 'creator' ) ;
#103 = ORIENTED_EDGE ( 'NONE', *, *, #317, .T. ) ;
#104 = CARTESIAN_POINT ( 'NONE',  ( -12.69999999999999574, -12.69999999999999396, 12.69999999999999929 ) ) ;
#105 = EDGE_LOOP ( 'NONE', ( #313, #35, #238, #306 ) ) ;
#106 = VECTOR ( 'NONE', #152, 999.9999999999998863 ) ;
#107 = LOCAL_TIME ( 10, 15, 6.000000000000000000, #23 ) ;
#108 = EDGE_LOOP ( 'NONE', ( #212, #242, #82, #311 ) ) ;
#109 = DIRECTION ( 'NONE',  ( 0.000000000000000000, 0.000000000000000000, 1.000000000000000000 ) ) ;
#110 = VERTEX_POINT ( 'NONE', #70 ) ;
#111 = ORIENTED_EDGE ( 'NONE', *, *, #119, .F. ) ;
#112 = CC_DESIGN_PERSON_AND_ORGANIZATION_ASSIGNMENT ( #218, #274, ( #49 ) ) ;
#113 = LINE ( 'NONE', #115, #43 ) ;
#114 = VECTOR ( 'NONE', #163, 1000.000000000000000 ) ;
#115 = CARTESIAN_POINT ( 'NONE',  ( 12.69999999999999929, 12.69999999999999929, -12.69999999999999929 ) ) ;
#116 = PERSON_AND_ORGANIZATION ( #46, #162 ) ;
#117 = FACE_OUTER_BOUND ( 'NONE', #40, .T. ) ;
#118 = APPLICATION_CONTEXT ( 'configuration controlled 3d designs of mechanical parts and assemblies' ) ;
#119 = EDGE_CURVE ( 'NONE', #56, #266, #172, .T. ) ;
#120 = DATE_TIME_ROLE ( 'creation_date' ) ;
#121 = CARTESIAN_POINT ( 'NONE',  ( 12.69999999999999574, 12.69999999999999574, 12.69999999999999929 ) ) ;
#122 = CALENDAR_DATE ( 2021, 5, 1 ) ;
#123 = LINE ( 'NONE', #173, #127 ) ;
#124 = VECTOR ( 'NONE', #271, 1000.000000000000000 ) ;
#125 = PERSON_AND_ORGANIZATION ( #46, #162 ) ;
#126 = CARTESIAN_POINT ( 'NONE',  ( 12.69999999999999574, 12.69999999999999574, 12.69999999999999929 ) ) ;
#127 = VECTOR ( 'NONE', #300, 1000.000000000000000 ) ;
#128 = LINE ( 'NONE', #126, #161 ) ;
#129 = VECTOR ( 'NONE', #26, 1000.000000000000000 ) ;
#130 = APPROVAL_PERSON_ORGANIZATION ( #71, #228, #298 ) ;
#131 = CALENDAR_DATE ( 2021, 5, 1 ) ;
#132 = PERSON_AND_ORGANIZATION_ROLE ( 'design_owner' ) ;
#133 = VERTEX_POINT ( 'NONE', #270 ) ;
#134 = ORIENTED_EDGE ( 'NONE', *, *, #18, .F. ) ;
#135 = AXIS2_PLACEMENT_3D ( 'NONE', #200, #232, #32 ) ;
#136 = PLANE ( 'NONE',  #73 ) ;
#137 = VERTEX_POINT ( 'NONE', #44 ) ;
#138 = APPROVAL_DATE_TIME ( #83, #194 ) ;
#139 = EDGE_CURVE ( 'NONE', #133, #207, #8, .T. ) ;
#140 = DATE_AND_TIME ( #320, #9 ) ;
#141 = CARTESIAN_POINT ( 'NONE',  ( 12.69999999999999574, 12.69999999999999574, 12.69999999999999929 ) ) ;
#142 = LINE ( 'NONE', #321, #309 ) ;
#143 = ADVANCED_FACE ( 'NONE', ( #178 ), #259, .F. ) ;
#144 = DIRECTION ( 'NONE',  ( -2.220446049250312588E-16, 1.000000000000000000, 0.000000000000000000 ) ) ;
#145 = LINE ( 'NONE', #247, #129 ) ;
#146 = DIRECTION ( 'NONE',  ( 2.220446049250312588E-16, -1.000000000000000000, 0.000000000000000000 ) ) ;
#147 = LINE ( 'NONE', #72, #265 ) ;
#148 = CC_DESIGN_PERSON_AND_ORGANIZATION_ASSIGNMENT ( #169, #272, ( #49 ) ) ;
#149 = AXIS2_PLACEMENT_3D ( 'NONE', #182, #279, #227 ) ;
#150 = LINE ( 'NONE', #52, #25 ) ;
#151 = FACE_OUTER_BOUND ( 'NONE', #13, .T. ) ;
#152 = DIRECTION ( 'NONE',  ( -0.7071067811865475727, -0.7071067811865475727, 0.000000000000000000 ) ) ;
#153 = ADVANCED_FACE ( 'NONE', ( #99 ), #203, .F. ) ;
#154 = VERTEX_POINT ( 'NONE', #280 ) ;
#155 = CARTESIAN_POINT ( 'NONE',  ( -12.69999999999999574, -12.69999999999999396, -12.69999999999999929 ) ) ;
#156 =( GEOMETRIC_REPRESENTATION_CONTEXT ( 3 ) GLOBAL_UNCERTAINTY_ASSIGNED_CONTEXT ( ( #78 ) ) GLOBAL_UNIT_ASSIGNED_CONTEXT ( ( #209, #287, #307 ) ) REPRESENTATION_CONTEXT ( 'NONE', 'WORKASPACE' ) );
#157 = CC_DESIGN_SECURITY_CLASSIFICATION ( #16, ( #49 ) ) ;
#158 = ORIENTED_EDGE ( 'NONE', *, *, #174, .F. ) ;
#159 = CARTESIAN_POINT ( 'NONE',  ( 0.000000000000000000, 0.000000000000000000, 12.69999999999999929 ) ) ;
#160 = ORIENTED_EDGE ( 'NONE', *, *, #284, .F. ) ;
#161 = VECTOR ( 'NONE', #98, 999.9999999999998863 ) ;
#162 = ORGANIZATION ( 'UNSPECIFIED', 'UNSPECIFIED', '' ) ;
#163 = DIRECTION ( 'NONE',  ( -2.220446049250312588E-16, 1.000000000000000000, 0.000000000000000000 ) ) ;
#164 = DIRECTION ( 'NONE',  ( 0.000000000000000000, 0.000000000000000000, 1.000000000000000000 ) ) ;
#165 = DIRECTION ( 'NONE',  ( 1.000000000000000000, -2.220446049250312588E-16, 0.000000000000000000 ) ) ;
#166 = AXIS2_PLACEMENT_3D ( 'NONE', #251, #90, #144 ) ;
#167 = ORIENTED_EDGE ( 'NONE', *, *, #234, .T. ) ;
#168 = ADVANCED_FACE ( 'NONE', ( #151 ), #303, .F. ) ;
#169 = PERSON_AND_ORGANIZATION ( #46, #162 ) ;
#170 = CARTESIAN_POINT ( 'NONE',  ( -12.69999999999999751, -12.69999999999999929, -12.69999999999999929 ) ) ;
#171 = CALENDAR_DATE ( 2021, 5, 1 ) ;
#172 = LINE ( 'NONE', #121, #255 ) ;
#173 = CARTESIAN_POINT ( 'NONE',  ( -12.69999999999999574, -12.69999999999999396, 12.69999999999999929 ) ) ;
#174 = EDGE_CURVE ( 'NONE', #266, #110, #128, .T. ) ;
#175 = LOCAL_TIME ( 10, 15, 6.000000000000000000, #250 ) ;
#176 = LINE ( 'NONE', #54, #257 ) ;
#177 = PLANE ( 'NONE',  #179 ) ;
#178 = FACE_OUTER_BOUND ( 'NONE', #105, .T. ) ;
#179 = AXIS2_PLACEMENT_3D ( 'NONE', #254, #226, #230 ) ;
#180 = CC_DESIGN_APPROVAL ( #256, ( #49 ) ) ;
#181 = EDGE_CURVE ( 'NONE', #154, #264, #150, .T. ) ;
#182 = CARTESIAN_POINT ( 'NONE',  ( 0.000000000000000000, 0.000000000000000000, -12.69999999999999929 ) ) ;
#183 = EDGE_LOOP ( 'NONE', ( #11, #15, #231, #240 ) ) ;
#184 = ADVANCED_BREP_SHAPE_REPRESENTATION ( 'N-SF1-BPBSC-25.4-420-680', ( #315, #97, #304 ), #156 ) ;
#185 = DIRECTION ( 'NONE',  ( -2.220446049250312588E-16, 1.000000000000000000, 0.000000000000000000 ) ) ;
#186 = ORIENTED_EDGE ( 'NONE', *, *, #234, .F. ) ;
#187 = LINE ( 'NONE', #155, #114 ) ;
#188 = ORIENTED_EDGE ( 'NONE', *, *, #314, .F. ) ;
#189 = APPLICATION_PROTOCOL_DEFINITION ( 'international standard', 'config_control_design', 1994, #290 ) ;
#190 = AXIS2_PLACEMENT_3D ( 'NONE', #68, #146, #164 ) ;
#191 = ORIENTED_EDGE ( 'NONE', *, *, #75, .T. ) ;
#192 = CARTESIAN_POINT ( 'NONE',  ( 12.69999999999999929, -12.69999999999999929, 12.69999999999999929 ) ) ;
#193 = FACE_OUTER_BOUND ( 'NONE', #183, .T. ) ;
#194 = APPROVAL ( #62, 'UNSPECIFIED' ) ;
#195 = LOCAL_TIME ( 10, 15, 6.000000000000000000, #51 ) ;
#196 = DIRECTION ( 'NONE',  ( 1.000000000000000000, -2.220446049250312588E-16, 0.000000000000000000 ) ) ;
#197 = APPROVAL_STATUS ( 'not_yet_approved' ) ;
#198 = CARTESIAN_POINT ( 'NONE',  ( -12.70000000000000284, 12.70000000000000284, -12.69999999999999929 ) ) ;
#199 = DATE_AND_TIME ( #95, #195 ) ;
#200 = CARTESIAN_POINT ( 'NONE',  ( 12.69999999999999929, 12.69999999999999929, 12.69999999999999929 ) ) ;
#201 = AXIS2_PLACEMENT_3D ( 'NONE', #288, #17, #185 ) ;
#202 = DATE_AND_TIME ( #171, #175 ) ;
#203 = PLANE ( 'NONE',  #149 ) ;
#204 = CARTESIAN_POINT ( 'NONE',  ( -12.69999999999999751, -12.69999999999999929, 12.69999999999999929 ) ) ;
#205 = ORIENTED_EDGE ( 'NONE', *, *, #139, .F. ) ;
#206 = DIRECTION ( 'NONE',  ( 0.000000000000000000, 0.000000000000000000, -1.000000000000000000 ) ) ;
#207 = VERTEX_POINT ( 'NONE', #28 ) ;
#208 = ORIENTED_EDGE ( 'NONE', *, *, #10, .T. ) ;
#209 =( LENGTH_UNIT ( ) NAMED_UNIT ( * ) SI_UNIT ( .MILLI., .METRE. ) );
#210 = VERTEX_POINT ( 'NONE', #198 ) ;
#211 = VECTOR ( 'NONE', #301, 1000.000000000000000 ) ;
#212 = ORIENTED_EDGE ( 'NONE', *, *, #317, .F. ) ;
#213 = ORIENTED_EDGE ( 'NONE', *, *, #20, .F. ) ;
#214 = EDGE_CURVE ( 'NONE', #266, #133, #147, .T. ) ;
#215 = PLANE ( 'NONE',  #190 ) ;
#216 = DIRECTION ( 'NONE',  ( 0.000000000000000000, 0.000000000000000000, 1.000000000000000000 ) ) ;
#217 = VECTOR ( 'NONE', #76, 1000.000000000000000 ) ;
#218 = PERSON_AND_ORGANIZATION ( #46, #162 ) ;
#219 = PLANE ( 'NONE',  #302 ) ;
#220 = SHAPE_DEFINITION_REPRESENTATION ( #229, #184 ) ;
#221 = PLANE ( 'NONE',  #269 ) ;
#222 = CARTESIAN_POINT ( 'NONE',  ( 12.69999999999999929, 12.69999999999999929, 12.69999999999999929 ) ) ;
#223 = ORIENTED_EDGE ( 'NONE', *, *, #65, .T. ) ;
#224 = EDGE_CURVE ( 'NONE', #110, #207, #123, .T. ) ;
#225 = DATE_AND_TIME ( #122, #107 ) ;
#226 = DIRECTION ( 'NONE',  ( -1.000000000000000000, 0.000000000000000000, 0.000000000000000000 ) ) ;
#227 = DIRECTION ( 'NONE',  ( 1.000000000000000000, 0.000000000000000000, 0.000000000000000000 ) ) ;
#228 = APPROVAL ( #197, 'UNSPECIFIED' ) ;
#229 = PRODUCT_DEFINITION_SHAPE ( 'NONE', 'NONE',  #77 ) ;
#230 = DIRECTION ( 'NONE',  ( 0.000000000000000000, 0.000000000000000000, 1.000000000000000000 ) ) ;
#231 = ORIENTED_EDGE ( 'NONE', *, *, #119, .T. ) ;
#232 = DIRECTION ( 'NONE',  ( 0.7071067811865475727, -0.7071067811865475727, 0.000000000000000000 ) ) ;
#233 = APPROVAL_PERSON_ORGANIZATION ( #116, #256, #1 ) ;
#234 = EDGE_CURVE ( 'NONE', #84, #308, #275, .T. ) ;
#235 = DIRECTION ( 'NONE',  ( 1.000000000000000000, 0.000000000000000000, 0.000000000000000000 ) ) ;
#236 = APPLICATION_PROTOCOL_DEFINITION ( 'international standard', 'config_control_design', 1994, #118 ) ;
#237 = ORIENTED_EDGE ( 'NONE', *, *, #286, .T. ) ;
#238 = ORIENTED_EDGE ( 'NONE', *, *, #181, .F. ) ;
#239 = CARTESIAN_POINT ( 'NONE',  ( 0.000000000000000000, 0.000000000000000000, 0.000000000000000000 ) ) ;
#240 = ORIENTED_EDGE ( 'NONE', *, *, #214, .T. ) ;
#241 = PERSON_AND_ORGANIZATION ( #46, #162 ) ;
#242 = ORIENTED_EDGE ( 'NONE', *, *, #224, .F. ) ;
#243 = DIRECTION ( 'NONE',  ( -0.7071067811865474617, -0.7071067811865474617, 0.000000000000000000 ) ) ;
#244 = CC_DESIGN_DATE_AND_TIME_ASSIGNMENT ( #140, #120, ( #77 ) ) ;
#245 = EDGE_LOOP ( 'NONE', ( #260, #261, #19 ) ) ;
#246 = CARTESIAN_POINT ( 'NONE',  ( 12.69999999999999929, 12.69999999999999929, 12.69999999999999929 ) ) ;
#247 = CARTESIAN_POINT ( 'NONE',  ( 12.69999999999999929, 12.69999999999999929, -12.69999999999999929 ) ) ;
#248 = CLOSED_SHELL ( 'NONE', ( #168, #143, #295, #318, #153 ) ) ;
#249 = APPROVAL_PERSON_ORGANIZATION ( #312, #194, #39 ) ;
#250 = COORDINATED_UNIVERSAL_TIME_OFFSET ( 8, 0, .AHEAD. ) ;
#251 = CARTESIAN_POINT ( 'NONE',  ( 0.000000000000000000, 0.000000000000000000, 12.69999999999999929 ) ) ;
#252 = DIRECTION ( 'NONE',  ( 0.000000000000000000, -0.000000000000000000, 1.000000000000000000 ) ) ;
#253 = APPROVAL_DATE_TIME ( #202, #256 ) ;
#254 = CARTESIAN_POINT ( 'NONE',  ( 12.69999999999999929, 12.69999999999999929, 12.69999999999999929 ) ) ;
#255 = VECTOR ( 'NONE', #165, 1000.000000000000000 ) ;
#256 = APPROVAL ( #276, 'UNSPECIFIED' ) ;
#257 = VECTOR ( 'NONE', #33, 1000.000000000000000 ) ;
#258 = CC_DESIGN_APPROVAL ( #228, ( #16 ) ) ;
#259 = PLANE ( 'NONE',  #293 ) ;
#260 = ORIENTED_EDGE ( 'NONE', *, *, #10, .F. ) ;
#261 = ORIENTED_EDGE ( 'NONE', *, *, #75, .F. ) ;
#262 = CC_DESIGN_PERSON_AND_ORGANIZATION_ASSIGNMENT ( #60, #132, ( #4 ) ) ;
#263 = ORIENTED_EDGE ( 'NONE', *, *, #20, .T. ) ;
#264 = VERTEX_POINT ( 'NONE', #2 ) ;
#265 = VECTOR ( 'NONE', #206, 1000.000000000000000 ) ;
#266 = VERTEX_POINT ( 'NONE', #96 ) ;
#267 = COORDINATED_UNIVERSAL_TIME_OFFSET ( 8, 0, .AHEAD. ) ;
#268 = CARTESIAN_POINT ( 'NONE',  ( -12.69999999999999574, -12.69999999999999396, 12.69999999999999929 ) ) ;
#269 = AXIS2_PLACEMENT_3D ( 'NONE', #268, #196, #216 ) ;
#270 = CARTESIAN_POINT ( 'NONE',  ( 12.69999999999999574, 12.69999999999999574, -12.69999999999999929 ) ) ;
#271 = DIRECTION ( 'NONE',  ( 1.000000000000000000, 0.000000000000000000, 0.000000000000000000 ) ) ;
#272 = PERSON_AND_ORGANIZATION_ROLE ( 'design_supplier' ) ;
#273 = EDGE_LOOP ( 'NONE', ( #158, #111, #188 ) ) ;
#274 = PERSON_AND_ORGANIZATION_ROLE ( 'creator' ) ;
#275 = LINE ( 'NONE', #222, #217 ) ;
#276 = APPROVAL_STATUS ( 'not_yet_approved' ) ;
#277 = FACE_OUTER_BOUND ( 'NONE', #79, .T. ) ;
#278 = CARTESIAN_POINT ( 'NONE',  ( 12.69999999999999574, 12.69999999999999574, -12.69999999999999929 ) ) ;
#279 = DIRECTION ( 'NONE',  ( -0.000000000000000000, 0.000000000000000000, 1.000000000000000000 ) ) ;
#280 = CARTESIAN_POINT ( 'NONE',  ( -12.69999999999999751, -12.69999999999999929, 12.69999999999999929 ) ) ;
#281 = DESIGN_CONTEXT ( 'detailed design', #118, 'design' ) ;
#282 = ORIENTED_EDGE ( 'NONE', *, *, #181, .T. ) ;
#283 = DIRECTION ( 'NONE',  ( 1.000000000000000000, 0.000000000000000000, 0.000000000000000000 ) ) ;
#284 = EDGE_CURVE ( 'NONE', #154, #3, #74, .T. ) ;
#285 = DIRECTION ( 'NONE',  ( -2.220446049250312588E-16, 1.000000000000000000, 0.000000000000000000 ) ) ;
#286 = EDGE_CURVE ( 'NONE', #210, #133, #176, .T. ) ;
#287 =( NAMED_UNIT ( * ) PLANE_ANGLE_UNIT ( ) SI_UNIT ( $, .RADIAN. ) );
#288 = CARTESIAN_POINT ( 'NONE',  ( 0.000000000000000000, 0.000000000000000000, -12.69999999999999929 ) ) ;
#289 = EDGE_LOOP ( 'NONE', ( #86, #103, #237 ) ) ;
#290 = APPLICATION_CONTEXT ( 'configuration controlled 3d designs of mechanical parts and assemblies' ) ;
#291 = DIRECTION ( 'NONE',  ( -0.000000000000000000, 1.000000000000000000, -0.000000000000000000 ) ) ;
#292 = FACE_OUTER_BOUND ( 'NONE', #273, .T. ) ;
#293 = AXIS2_PLACEMENT_3D ( 'NONE', #53, #30, #252 ) ;
#294 = CARTESIAN_POINT ( 'NONE',  ( -12.69999999999999751, -12.69999999999999929, -12.69999999999999929 ) ) ;
#295 = ADVANCED_FACE ( 'NONE', ( #277 ), #177, .F. ) ;
#296 = LINE ( 'NONE', #24, #21 ) ;
#297 = DIRECTION ( 'NONE',  ( 0.7071067811865475727, 0.7071067811865475727, 0.000000000000000000 ) ) ;
#298 = APPROVAL_ROLE ( '' ) ;
#299 = PRODUCT_RELATED_PRODUCT_CATEGORY ( 'detail', '', ( #4 ) ) ;
#300 = DIRECTION ( 'NONE',  ( 0.000000000000000000, 0.000000000000000000, -1.000000000000000000 ) ) ;
#301 = DIRECTION ( 'NONE',  ( -0.000000000000000000, -0.000000000000000000, -1.000000000000000000 ) ) ;
#302 = AXIS2_PLACEMENT_3D ( 'NONE', #141, #92, #297 ) ;
#303 = PLANE ( 'NONE',  #135 ) ;
#304 = AXIS2_PLACEMENT_3D ( 'NONE', #239, #109, #283 ) ;
#305 = ADVANCED_FACE ( 'NONE', ( #6 ), #100, .F. ) ;
#306 = ORIENTED_EDGE ( 'NONE', *, *, #284, .T. ) ;
#307 =( NAMED_UNIT ( * ) SI_UNIT ( $, .STERADIAN. ) SOLID_ANGLE_UNIT ( ) );
#308 = VERTEX_POINT ( 'NONE', #310 ) ;
#309 = VECTOR ( 'NONE', #89, 1000.000000000000000 ) ;
#310 = CARTESIAN_POINT ( 'NONE',  ( 12.69999999999999929, 12.69999999999999929, -12.69999999999999929 ) ) ;
#311 = ORIENTED_EDGE ( 'NONE', *, *, #48, .T. ) ;
#312 = PERSON_AND_ORGANIZATION ( #46, #162 ) ;
#313 = ORIENTED_EDGE ( 'NONE', *, *, #41, .T. ) ;
#314 = EDGE_CURVE ( 'NONE', #110, #56, #81, .T. ) ;
#315 = MANIFOLD_SOLID_BREP ( 'Í¹Ì¨-À', #248 ) ;
#316 = CARTESIAN_POINT ( 'NONE',  ( -12.70000000000000284, 12.70000000000000284, 12.69999999999999929 ) ) ;
#317 = EDGE_CURVE ( 'NONE', #207, #210, #187, .T. ) ;
#318 = ADVANCED_FACE ( 'NONE', ( #85 ), #136, .T. ) ;
#319 = LINE ( 'NONE', #170, #124 ) ;
#320 = CALENDAR_DATE ( 2021, 5, 1 ) ;
#321 = CARTESIAN_POINT ( 'NONE',  ( -12.70000000000000284, 12.70000000000000284, 12.69999999999999929 ) ) ;
ENDSEC;
END-ISO-10303-21;
